A B C D E F G H I J K L M N O P Q R S T U V W X Y Z
Zap Cifras - Cifras e Tablaturas




Marilyn Manson - Sweet Dreams

Dicionário de Acordes
Verse 1 (Guitar 1)
G|------0---1---0-|------------------|
D|----------------|------------------|
A|--3-3---3---3---|-----6/7-----5/6--|
E|----------------|--4-4-----3-3-----|


("Sweet dreams are made of these...")

Pre-Chorus 1 (Guitar 2)
e|--------------------------------------------------------
B|--------------------------------------------------------
G|-5------------5m----------------------------------------
D|-5------------5m------------5^--------------------------
A|-3------------3m-------6----5^--------------------------
E|----------------------------3^--------------------------

Chorus
e|--------------------------------------------------------
B|--------------------------------------------------------
G|---------------5----------------------------------------
D|-6--------5-5--5-(x8)--6-------5---6-------5------------
A|-6-(x14)--5-5--3-------6-(x7)--5---6-(x8)--5-(x7)-------
E|-4--------3-3----------4-------3---4-------3------------

*Verse 2
e|-------------------------------------------------------------
B|-------------------------------------------------------------
G|--------0-----1-----0--------------------------------------
D|-----------------------------------1h3--------0h1----------
A|-3--3-----3-----3-----3-----------------------------------
E|----------------------------4--4--------3--3---------3----
*Verse 2 is almost the same as verse one except the
last note is hit instead of slid to.

Pre-Chorus 2 (Guitar 2, palm muted)
e|--------------------------------------------------------
B|--------------------------------------------------------
G|-5---------------5--------------------------------------
D|-5-----6---5-----5-----6---5----------------------------
A|-3-----6---5-----3-----6---5----------------------------
E|-------4---3-----------4---3----------------------------
("Some of them want to use you...")

Solo 1
e|--------------------------------------------------------
B|---------3^----------3^----------3^----------6^---------
G|-5--3-5------5--3-5------5--3-5------5--3-5-------------
D|--------------------------------------------------------
A|--------------------------------------------------------
E|--------------------------------------------------------

(continued)
e|--------------------------------------------------------
B|---------3^--------------3^-----------------------------
G|-5--3-5------5-5p3p0--5---------------------------------
D|--------------------------------------------------------
A|--------------------------------------------------------
E|--------------------------------------------------------

Bridge (palm muted)                end on
e|----------------------------------|---------------------
B|----------------------------------|---------------------
G|-5-----------5-----------5--------|---------------------
D|-5-----6-----5-----6-----5-----6--|-6--6--6-------------
A|-3-----6-----3-----6-----3-----6--|-6--6--6-------------
E|-------4-----------4-----------4--|-4--4--4-------------
("Moving on...")

Solo 2
e|--------11----------------------------------------------
B|-11--13-----11--13-11-----------------------------------
G|----------------------11^-------------------------------
D|----------------------------10--8--10-----------10-10-10
A|---------------------------------------9^-9^-9^---------
E|--------------------------------------------------------

(continued)
e|-------------------------------------------11--13-14^---
B|---------------------------------11-13--11------------13
G|----------------------------11^-------------------------
D|-10m-13m----8--10-12h13^-12-----------------------------
A|---------8^---------------------------------------------
E|--------------------------------------------------------

Solo 3
e|--------------------------------------------------------
B|--------3^-3----------6^----------3^--------------------
G|-5--3-5-------5--3-5------5--3-5------5--3-5--5---------
D|--------------------------------------------------------
A|--------------------------------------------------------
E|--------------------------------------------------------

(continued)
e|----------------10-11^-------------14^------------10-11^
B|-13--13p11--13----------13--11-13-------13--11-13-------
G|--------------------------------------------------------
D|--------------------------------------------------------
A|--------------------------------------------------------
E|--------------------------------------------------------

(continued)
e|----------------10-11^---14^----------------------------
B|-13--13p11--13------------------------3^----------------
G|--------------------------------------------------------
D|--------------------------------------------------------
A|--------------------------------------------------------
E|--------------------------------------------------------


Verse 1
Verse 1, Pre-Chorus 1
Chorus
Verse 1 (with wah)
Verse 2
Verse 2, Pre-Chorus 2
Chorus, Solo 1
Bridge
Verse 1, Solo 2
Verse 2, Pre-Chorus 2
Chorus, Solo 3



Sweet Dreams

Sweet dreams are made of this
Who am I to disagree?
Travel the world and the seven seas
Everybody´s looking for something

Some of them want to use you
Some of them want to get used by you
Some of them want to abuse you
Some of them want to be abused.


_______________________________________________________
Contribuição: Sergio Henrique Marrafon(marrafon@zipmail.com.br)
Correção: Danilo de Oliveira Carvalho (danilo_carv@hotmail.com)
Correção: Pedro Henrique (stiffler@terra.com)
Correção: Julio S. Macedo (juliosm@ig.com.br)
Correção: Guilherme Hoff Casonatti Pereira (guilherme_hoff@hotmail.com)
Correção: Charles Magalhães de Oliveira (charlesrocksk8@bol.com.br)
Correção: Wellpe (soadmanson@terra.com.br)
© 2003 zap-cifras.com · todos os direitos reservados

Letras de músicas | Lyrics | Emprego | Estágio

Últimas cifras e tabs adicionadas ao site Entre em contato conosco Envie suas músicas Política de privacidade dos seus dados e de uso deste site